NADIE TE AMA COMO YO

e---------------------------------------------------|
B----3---5-5-6---6-5-3-----3---5-5-6---6-5-3-3------|
G--2---------------------2------------------5-------|
D---------------------------------------------------|
A---------------------------------------------------|
E---------------------------------------------------|


e---------------------------------------------------|
B--3-5-6-8--8-6-5-3-3-5----6-5---6-5----------------|
G------------------5----------7------7-5-5-7--------|
D---------------------------------------------------|
A---------------------------------------------------|
E---------------------------------------------------|


e---------------------------------------------------------------|
B---------------------------------------------------------5-6-8-|
G--5-7-9-9-10---10-9-7-5-5-5-7----5-7-9-9-10-12-10-9-7-5-7------|
D---------------------------------------------------------------|
A---------------------------------------------------------------|
E---------------------------------------------------------------|


e---------------------------------------------------|
B--8-6-5-3-3-5---6-5---6-5--------------------------|
G---------5---------7-----7-5-5-7-------------------|
D---------------------------------------------------|
A---------------------------------------------------|
E---------------------------------------------------|


C Em             Am   
Cuánto he esperado este momento,
F Dm       G
Cuánto he esperado que estuvieras así.
C Em             Am   
Cuánto he esperado que me hablaras,
F Dm      G
Cuánto he esperado que vinieras a mí.

C Em          Am   
Yo sé bien lo que has vivido,
F Dm           G
Yo se bien porqué has llorado;
C Em           Am   
Yo se bien lo que has sufrido
F Dm           G ??? G7
Pues de tu lado no me he ido.

Coro:     (RASGUEADO)

C Em       Am   
Pues nadie te ama como yo,
F             D7       G ??? G7
Pues nadie te ama como yo;
C
Mira a la cruz,
 G Am ??? Am7
Esa es mi más grande prueba.
F         Dm      G ??? G7
Nadie te ama como yo.


C Em       Am   
Pues nadie te ama como yo,
F             D7       G ??? G7
Pues nadie te ama como yo;
C G
Mira a la cruz, fue por ti,
Am ??? Am7
Fue porque te amo.
F       G C    G-Am-C  G-Am-C
Nadie te ama como yo.


C Em       Am   
Yo se bien lo que me dices
F D          G
Aunque a veces no me hablas;
C Em             Am   
Yo se bien lo que en ti sientes
F Dm G      
Aunque nunca lo compartas.

C Em      Am   
Yo a tu lado he caminado,
F Dm           G
Junto a ti yo siempre he ido;
C Em      Am   
Aún a veces te he cargado.
F Dm       G ??? G7
Yo he sido tu mejor amigo.


Este es el arpegio

       DO
e-------0----| en los demás acordes el arpegio es el mismo
B--1---------| esta canción es del video ???no te rindas???
G-----0---0--| así que es mas acústica, en el coro te sugiero
D------------| que sean dos guitarras las que toquen, una arpegiando
A--3---------| y la otra rasgueando.
E------------|