Cuando aparece Em* se toca esta variación: e-x
                                           B-5
                                           G-4
                                           D-5
                                           A-4
                                           E-x

Cuando aparece Dm* se toca esta:           e-x
                                           B-3
             ^                             G-2
             |                             D-3
             |                             A-2
             |                             E-x

Esas armonías son exactas, pero puede tocarse con Em y Dm normales
INTRO

       D    Bm7  Em       A7   F#m       Bm    Em       E7      A7
e -----5----------7-5---------------------------------------------|
B -7-8----------------8-7-8-7-5---7-8-7-8-7---5-7-5-5---7-5-5-7-5-|
G -------7-6-7--7---------------7-----------7---------7-----------|
D ----------------------------------------------------------------|
A ----------------------------------------------------------------|
E ----------------------------------------------------------------|

        D      Bm7
ME SORPRENDE SE??OR,
   Em         A7
HALLARTE TAN PEQUE??O
         F#m   Bm
EN UN HUMILDE PAN
       Em*         F#7
QUE MI BOCA PUEDE TRITURAR
     Dm*   Em   E7
Y PODER TENER DENTRO DE MI
   Em7           A7
A UN AMIGO DE VERDAD

     D         Bm7
ME SORPRENDE SE??OR,
   Em                 A7           F#m    Bm
QUE SIENDO TU EL MǁS GRANDE PUEDAS AHǍ ESTAR
  Em*                  F#7
DEMOSTRANDO TODA TU HUMILDAD
      Dm*        E7        Em7      A7
DEMOSTRANDO CUANTO ERES CAPAZ DE AMAR


CORO:
       D         Bm
HOY ME ALEGRA SE??OR
  Em         A7           F#m   Bm
SABERME CONVIDADO A TU CELEBRACI??N
   Em               A7          F#m Bm
SENTARME AQUǍ EN TU MESA Y DE CORAZ??N
 Bb               C           D   Bm
SELLAR CONTIGO UN PACTO DE ESPERANZA
 Bb               C           D   Bm
DE LLEVAR A LOS DEMǁS TU PAN DE VIDA
 Em              A7             D
Y LLENAR EL CORAZ??N QUE TRISTE ESTǁ.

       D         Bm
HOY ME ALEGRA SE??OR
  Em         A7           F#m   Bm
SABERME CONVIDADO A TU CELEBRACI??N
   Em               A7          F#m Bm
SENTARME AQUǍ EN TU MESA Y DE CORAZ??N
 Bb               C           D   Bm
SELLAR CONTIGO UN PACTO DE ESPERANZA
 Bb               C           D   Bm
DE LLEVAR A LOS DEMǁS TU PAN DE VIDA
 Em              A7             D
Y LLENAR EL CORAZ??N QUE TRISTE ESTǁ.

       D    Bm7  Em       A7   F#m       Bm    Em       E7      A7
e -----5----------7-5---------------------------------------------|
B -7-8----------------8-7-8-7-5---7-8-7-8-7---5-7-5-5---7-5-5-7-5-|
G -------7-6-7--7---------------7-----------7---------7-----------|
D ----------------------------------------------------------------|
A ----------------------------------------------------------------|
E ----------------------------------------------------------------|

        D      Bm7
ME SORPRENDE SE??OR,
   Em         A7
HALLARTE TAN PEQUE??O
         F#m   Bm
EN UN HUMILDE PAN
       Em*         F#7
QUE MI BOCA PUEDE TRITURAR
     Dm*   Em   E7
Y PODER TENER DENTRO DE MI
   Em7           A7
A UN AMIGO DE VERDAD

     D         Bm7
ME SORPRENDE SE??OR,
   Em                 A7           F#m    Bm
QUE SIENDO TU EL MǁS GRANDE PUEDAS AHǍ ESTAR
  Em*                  F#7
DEMOSTRANDO TODA TU HUMILDAD
      Dm*        E7        Em7      A7
DEMOSTRANDO CUANTO ERES CAPAZ DE AMAR

CORO:
       D         Bm
HOY ME ALEGRA SE??OR
  Em         A7           F#m   Bm
SABERME CONVIDADO A TU CELEBRACI??N
   Em               A7          F#m Bm
SENTARME AQUǍ EN TU MESA Y DE CORAZ??N
 Bb               C           D   Bm
SELLAR CONTIGO UN PACTO DE ESPERANZA
 Bb               C           D   Bm
DE LLEVAR A LOS DEMǁS TU PAN DE VIDA
 Em              A7             D
Y LLENAR EL CORAZ??N QUE TRISTE ESTǁ.

       D         Bm
HOY ME ALEGRA SE??OR
  Em         A7           F#m   Bm
SABERME CONVIDADO A TU CELEBRACI??N
   Em               A7          F#m Bm
SENTARME AQUǍ EN TU MESA Y DE CORAZ??N
 Bb               C           D   Bm
SELLAR CONTIGO UN PACTO DE ESPERANZA
 Bb               C           D   Bm
DE LLEVAR A LOS DEMǁS TU PAN DE VIDA
 Em              A7             D
Y LLENAR EL CORAZ??N QUE TRISTE ESTǁ.

    D    Bm7  Em       A7   F#m       Bm    Em       E7      A7
e -----5----------7-5---------------------------------------------|
B -7-8----------------8-7-8-7-5---7-8-7-8-7---5-7-5-5---7-5-5-7---|
G -------7-6-7--7---------------7-----------7---------7---------7-|
D ----------------------------------------------------------------|
A ----------------------------------------------------------------|
E ----------------------------------------------------------------|