Intro
E|------|-------5-|------|-----------|----------|
A|--7-7-|-4-7-5---|-2-4--|-4h5-4-2-0-|-0---0-2--|
D|------|---------|------|-----------|----------|
G|------|---------|----6-|-----------|---6------|

E|------|-------5-|------|-----------|--------|
A|--7-7-|-4-7-5---|-2-4--|-4h5-4-2-0-|-4---2--|
D|------|---------|------|-----------|--------|
G|------|---------|----6-|-----------|---6----|

Vamos Cantad
E|----|---|---|-------|-2-|-5-|-7-|-5-7-5-7--|
A|--7-|-6-|-4-|-2-4-2-|---|---|---|----------| X2
D|----|---|---|-------|---|---|---|----------|
G|----|---|---|-------|---|---|---|----------|

Es tan bueno
E|----------|------|-2-|-5-|-7-|-5775--|
A|--22--2-4-|-2442-|---|---|---|-------|x3
D|----------|------|---|---|---|-------|
G|----4-----|------|---|---|---|-------|

E|----------|------|-2-|-5-|-7-|-5/14/5--|
A|--22--2-4-|-2442-|---|---|---|---------|
D|----------|------|---|---|---|---------|
G|----4-----|------|---|---|---|---------|

Vamoz Gozad
E|----|---|---|---------|-2-|-5-|-7-|-5-77---7--|
A|--7-|-6-|-4-|-2-4-2---|---|---|---|------7----|
D|----|---|---|-------4-|---|---|---|-----------|
G|----|---|---|---------|---|---|---|-----------|

E|----|---|---|---------|-2-|-5-|-7-|-5-77-5-7--|
A|--7-|-6-|-4-|-2-4-2---|---|---|---|-----------|
D|----|---|---|-------4-|---|---|---|-----------|
G|----|---|---|---------|---|---|---|-----------|

Es tan bueno
E|----------|------|-2-|-5-5-|-7-|-5-77-5-7-|
A|--22--2-4-|-2442-|---|-----|---|----------|x3
D|----------|------|---|--7--|---|----------|
G|----4-----|------|---|-----|---|----------|

E|----------|------|-2-|-5-5-|-7-|-5-77---7-|
A|--22--2-4-|-2442-|---|-----|---|------7---|
D|----------|------|---|--7--|---|----------|
G|----4-----|------|---|-----|---|----------|

Intro
E|------|-------5----|------|-----------|------|
A|--7-7-|-4-7-5----4-|-2-4--|-4h5-4-2-0-|-2-2--|
D|------|--------7---|------|-----------|------|
G|------|------------|----6-|-----------|------|

E|------|-------5-|------|-----------|------|
A|--7-7-|-4-7-5---|-2-4--|-4h5-4-2-0-|-0-2--|
D|------|---------|------|-----------|------|
G|------|---------|----6-|-----------|------|

Vamos Alabad
E|----|---|-----|-------|-2-|-5-|-7-|-5-77-5-7--|
A|--7-|-6-|-9/4-|-2-4-2-|---|---|---|-----------|
D|----|---|-----|-------|---|---|---|-----------|
G|----|---|-----|-------|---|---|---|-----------|

E|----|---|-----|---------|-2-|-5-|-7-|-5-7-5-7--|
A|--7-|-6-|-9/4-|-2-4-22--|---|---|---|----------|
D|----|---|-----|-------4-|---|---|---|----------|
G|----|---|-----|---------|---|---|---|----------|

Es tan bueno
E|--------|------|-2-|-5-7-5-|-7-|-5-77-5-7-|
A|--22--4-|-2442-|---|-------|---|----------|x2
D|-----4--|------|---|-------|---|----------|
G|----4---|------|---|-------|---|----------|

E|-------|------------|-2-|-5-7-5-|-77-|-5-77-5-7--|
A|--22-2-|-77-66-44-2-|---|-------|----|-----------|
D|-------|------------|---|-------|----|-----------|
G|----4--|------------|---|-------|----|-----------|

E|----------|------|-2-|-5-7-5-|-7-|-5-77-5-7--|
A|--22--2-4-|-2442-|---|-------|---|-----------|
D|----------|------|---|-------|---|-----------|
G|----4-----|------|---|-------|---|-----------|

Vamos adorar
E|----|---|---|-------|-2-|-5-|-7-|-5-7-5-7--|
A|--7-|-6-|-4-|-2-4-2-|---|---|---|----------| X2
D|----|---|---|-------|---|---|---|----------|
G|----|---|---|-------|---|---|---|----------|

Es tan bueno
E|----------|------|-2-|-55-|-7-|-5-7-5-7--|
A|--22--2-4-|-2420-|---|----|---|----------|
D|----------|------|---|----|---|----------|
G|----4-----|------|---|----|---|----------|

E|----------|------|-2-|-55-|-7-|-5-7-5-7--|
A|--22----2-|-2420-|---|----|---|----------|
D|------4---|------|---|----|---|----------|
G|----4-----|------|---|----|---|----------|

E|--------|-22445577-|-2-|-5-|-7-|-5-7-5-7--|
A|--22--2-|----------|---|---|---|----------|
D|--------|----------|---|---|---|----------|
G|----4---|----------|---|---|---|----------|

E|----------|------|-2-|-5-|-7-|-5775--|
A|--22--2-4-|-2442-|---|---|---|-------|
D|----------|------|---|---|---|-------|
G|----4-----|------|---|---|---|-------|

Fin Intro
E|------|-------5-|------|-----------|----------|
A|--7-7-|-4-7-5---|-2-4--|-4h5-4-2-0-|-0---0-2--|
D|------|---------|------|-----------|----------|
G|------|---------|----6-|-----------|---6------|

E|------|-------5-|------|-----------|------|
A|--7-7-|-4-7-5---|-2-4--|-4h5-4-2-0-|-2-2--|
D|------|---------|------|-----------|------|
G|------|---------|----6-|-----------|------|