ACORDES:> D A Bm F#m G

Acordes: D, A, Bm, F#m, G

Esta muy fácil. Espero que les guste.

e------5-4----------------------|----------|-----------------------
b--5-7--------------------------|5-7-7>9-10|-----------------------
g----------6-4-1>2-2-1-1>2-1----|----------|-----------------------
d----------------------------4--|----------|-----------------------
a-------------------------------|----------|-----------------------
E-------------------------------|----------|-----------------------

e-----------------------------------------------------------------
b-10-12-12>14-15-14---14-14-15------------------------------------
g------------------------------16-14-14---------------------------
d---------------------------------------14-14>16-14---------------
a-----------------------------------------------------------------
E-----------------------------------------------------------------
Pescador, Cristo te hizo pescador,indícanos donde encontrarlo
para ser con ??l, felices como Tú

D
Voy
     A           Bm   F#m
navegando sin timón
          G
en mar abierto
        D         A
me abandona la razón.

       D        G
Apenas y sobrevivo
         D      A
como un niño perdido
       G
busco algo
        A              D
que no hay en mi interior.


 D
Mas
      A           Bm   F#m
de repente llegas Tú
           G
y en tu palabra
        D             A
el faro de la blanca luz.

            D       G
Llévame a puerto seguro
        D      A
donde hay un futuro
        G
donde exista
     A         D
un cielo más azul.





CORO

      D               A
Tu palabra es la esperanza
        Bm          F#m
que buscamos tantas almas
      G         D              A
Pescador, Tú serás el viento nuevo.
     G        A
Tu serás el amigo
          Bm              F#m
que nos lleve a un mundo nuevo
       D       A         G
en tu gran corazón   infinito
       D       A         G
en tu gran corazón   infinito



D
Si
           A         Bm  F#m
cuesta a veces continuar
           G
en el naufragio
        D           A
y entre tanta oscuridad.

          D              G
En medio de un mar que calla
     D           A
y la fe que nos falta
        G
voy en busca
   A           D
de un poco de paz


 D
Mas
      A           Bm  F#m
de repente llegas tú
           G
y en tu palabra
         D            A
el faro de la blanca luz

            D       G
Llévame a puerto seguro
       D        A
donde hay un futuro
         G
donde exista
     A         D
un cielo más azul.

COROx2