ACORDES:> D A Bm G Dsus

Tema de Juan Pablo II

Intro

e--3----0---3-2----------------------------------------------------
b------------------0-----------------------------------------------
g----------------------2--------------------------------4-4-4-2----
d--------------------------4/5--5--4--4/5/4--2---------------------
a------------------------------------------------------------------
E------------------------------------------------------------------

e--3----0-2--3--2---2-2--3--0--------------------------------------
b----------------------------------3----3--------------------------
g------------------------------------------2-----2/4/2---2---------
d------------------------------------------------------------------
a------------------------------------------------------------------
E------------------------------------------------------------------


D          A                       Bm
 'Pescador, Cristo te hizo pescador,
F#m                        G
indícanos donde encontrarlo
             D                 A
para ser con ??l, felices como Tú'



 D
Voy
     A           Bm
navegando sin timón
          G
en mar abierto
        D         A
me abandona la razón.

       D        G
Apenas y sobrevivo
         D      A
como un niño perdido
       G
busco algo
        A              D         Dsus
que no hay en mi interior.


 D
Mas
      A           Bm
de repente llegas Tú
           G
y en tu palabra
        D             A
el faro de la blanca luz.

            D       G
Llévame a puerto seguro
        D      A
donde hay un futuro
        G
donde exista
     A         D             Dsus
un cielo más azul.


CORO

      D               A
Tu palabra es la esperanza
        Bm
que buscamos tantas almas
      G         D              A
Pescador, Tú serás el viento nuevo.
     D        A
Tu serás el amigo
          D        F#m    Bm
que nos lleve a un mundo nuevo
       D       A         G
en tu gran corazón   infinito (bis)



D
Si
           A         Bm
cuesta a veces continuar
           G
en el naufragio
        D           A
y entre tanta oscuridad.

          D              G
En medio de un mar que calla
     D           A
y la fe que nos falta
        G
voy en busca
   A           D        Dsus
de un poco de paz


 D
Mas
      A           Bm
de repente llegas tú
           G
y en tu palabra
         D            A
el faro de la blanca luz

            D       G
Llévame a puerto seguro
       D        A
donde hay un futuro
         G
donde exista
     A         D          Dsus
un cielo más azul.

CORO