Intro
E|----|---|---|--------|
A|--6-|-5-|-6-|-3-5-1--|x2
D|----|---|---|--------|
G|----|---|---|--------|

De este nuevo
E|----|---|---|---|---|---|---|----|
A|--6-|-5-|-3-|---|---|-5-|-6-|----|
D|----|---|---|-3-|-5-|---|---|-3--|
G|----|---|---|---|---|---|---|----|
hasta aca se toca suave

Pudo nacer
E|----|---|---|--------|
A|----|---|---|--------|
D|----|---|---|--------|
G|--8-|-7-|-8-|-5-7-3--|

En su candoroso
E|----|---|---|-1-|-3-|---|---|---|-1-|---|-1-|-1----|
A|--6-|-5-|-3-|---|---|-5-|-6-|---|---|-1-|---|------|
D|----|---|---|---|---|---|---|-3-|---|---|---|---3--|
G|----|---|---|---|---|---|---|---|---|---|---|------|

Madre del mundo
E|----|-----|---4-|-4-3-|-3---|-----|---|-----|---|------|
A|--1-|-1-0-|-0---|-----|---3-|-3-3-|-6-|-6-6-|-8-|-8-8--|
D|----|-----|-----|-----|-----|-----|---|-----|---|------|
G|----|-----|-----|-----|-----|-----|---|-----|---|------|

E|----|---|---|--------|
A|----|---|---|--------|
D|----|---|---|--------|
G|--8-|-7-|-8-|-5-7-3--|

Crecio el niño
E|----|---|---|---|-3-|---|---|-1-|----|
A|--6-|-5-|-3-|---|---|-5-|-6-|---|----|
D|----|---|---|-3-|---|---|---|---|-3--|
G|----|---|---|---|---|---|---|---|----|

separar
E|----|---|---|--------|
A|----|---|---|--------|
D|----|---|---|--------|
G|--8-|-7-|-8-|-5-7-3--|

pero llegara pronto
E|----|-----|---|-----|-----|-----|-1-|-1-1-111--|
A|--6-|-6-5-|-6-|-6-5-|-8-6-|-6-5-|---|----------|
D|----|-----|---|-----|-----|-----|---|----------|
G|----|-----|---|-----|-----|-----|---|----------|

Madre del mundo
E|----|-----|---4-|-4-3-|-3---|-----|---|-----|---|------|
A|--1-|-1-0-|-0---|-----|---3-|-3-3-|-6-|-6-6-|-8-|-8-8--|
D|----|-----|-----|-----|-----|-----|---|-----|---|------|
G|----|-----|-----|-----|-----|-----|---|-----|---|------|

Madre del mundo
E|----|-----|---4-|-4-3-|-3---|-----|----|
A|--1-|-1-0-|-0---|-----|---3-|-3-3-|-6--|
D|----|-----|-----|-----|-----|-----|----|
G|----|-----|-----|-----|-----|-----|----|

semilla
E|--1-|-----|---|---|---|--------|
A|----|-----|---|---|---|--------|
D|----|-3/0-|---|---|---|--------|
G|----|-----|-8-|-7-|-8-|-5-7-3--|

De este triste
E|----|---|---|----|
A|--6-|-5-|-3-|----|
D|----|---|---|-3--|
G|----|---|---|----|

mujer
E|----|---|---|--------|
A|--6-|-5-|-6-|-3-5-1--|
D|----|---|---|--------|
G|----|---|---|--------|