Intro
E--0--------------------------------------------------|
B----1-0------------1-1-0--1------------1-3-----------|
G--------2-0-2-0-2-----------2-0-2-0-2----------------|x2
D-----------------------------------------------------|
A-----------------------------------------------------|
E-----------------------------------------------------|


E----0-------0--3--------3-------0--------------------|
B-----3--1-3--3---1--1-3---1---1---3------------------|
G--0-------------------------2------------------------|x2
D-----------------------------------------------------|
A-----------------------------------------------------|
E-----------------------------------------------------|



Lam Sol Fa Sol#
Hoy,yo te quiero contar Jesús Amigo, que contigo soy feliz.
Lam Sol Fa Sol#
Si, tengo tu amistad lo tengo todo, pues estás dentro de mí.
Do Sol Fa Sol#
Después de comulgar, me haces como tú, me llenas con tu paz.
Do Sol Fa Sol#
En cada pedacito de ese pan, completo estás, y así te das.
Lam Sol Fa Sol#
Estás ahí por mí, porque conoces, que sin ti pequeño soy.
Do Sol Fa Sol#
De ahora en adelante, nada nos separará, ya lo verás.

Coro
Do Fa Sol#
Te escondes en el pan, y aunque no te puedo ver,
mim Lam Fa Sol#
te puedo acompañar, es mi lugar, preferido.
Do Fa Sol#
Hoy quiero comulgar, abrirte mi corazón,
mim Lam Fa Sol#
así de par en par, eres mi mejor, amigo.

Lam Sol Fa Sol#
Dos, mil años atrás a tus amigos, invitaste a cenar,
Lam Sol Fa Sol#
y ahí les prometiste que con ellos, por siempre ibas a estar.
Do Sol Fa Sol#
Y ahora cada vez, que el sacerdote eleva el pan, sobre el altar,
Do Sol Fa Sol#
me pongo de rodillas porque sé, que en esa Hostia tú estás.

Coro
Do Fa Sol#
Te escondes en el pan, y aunque no te puedo ver,
mim Lam Fa Sol#
te puedo acompañar, es mi lugar, preferido.
Do Fa Sol#
Hoy quiero comulgar, abrirte mi corazón,
mim Lam Fa Sol#
así de par en par, eres mi mejor, amigo
Do Fa Sol#
Me vuelves a salvar, como lo hiciste en la cruz,
mim Lam Fa Sol#
y en cada misa tú, repites tu, sacrificio.

Do Fa Sol#
Hoy quiero comulgar, abrirte mi corazón,
mim Lam Fa Sol#
así de par en par, eres mi mejor, amigo
Do
Jesús, (Jesús), (uuu).