Intro    (RIFF1)

1 -2-2-0-5-------2-----3-2-0---------2-2-0-5---------
2 ---------3-3-2---0-0-------3-3-2-3---------3-3-2-3-
3 ---------------------------------------------------
4 ---------------------------------------------------
5 ---------------------------------------------------
6 ---------------------------------------------------

Esta es la segunda parte

1 -2-2-0-5-------2-----5-3-2-0----------
2 ---------3-3-2---0-0---------3-2-3----
3 --------------------------------------
4 --------------------------------------
5 --------------------------------------
6 --------------------------------------

este es como el acompañamiento en todo el canto, junto con el intro

RIFF 2
1 -------------0-2-3-3-3-3-2-0---------
2 -3-3-2-3-3-3-----------------3-3-2-0-
3 -------------------------------------
4 -------------------------------------
5 -------------------------------------
6 -------------------------------------

RIFF1      G                 D       Em       D    C               D              G
         Quien pierde su vida por mi, la encontrara, la encontrara, la encontrara    RIFF1
          G               D        Em     D         C              D             G
         Quien deja su padre por mi, su madre por mi, me encontrara, me encontrara
           D      Em       D       C              D              G
RIFF2    No tengas miedo, no tengas miedo yo estoy aqui, yo estoy aqui
          G                D       Em         D       C    Bm           D               G
RIFF1    Quien deja su tierra por mi, sus bienes por mi, sus hijos por mi, me encontrara
          D            Em   D     C                D               G
RIFF2    no tengas miedo, yo conozco a quienes elegi, a quienes elegi
           G                 D      Em      D      C        Bm     D              G
RIFF1    quien pierde su vida por mi, la encontrara, la encontrara, la encontrara