Intro

1|-0-----0-0-1-3-0--3---3-----3------0---0-------0---|
2|-1---1------------3-----3-----3-0--1-----1-1-3---1-|
3|-0-0--------------0-0-----0--------2-2-------------|
4|---------------------------------------------------|
5|-3---------------------------------0---------------|
6|------------------3--------------------------------|

1|-----0----------1-----------1--3---3---1---0-------|
2|-0-----0---3-0--1---1---3------3-------------0-----|
3|-0-0-----0------2-2---2---2------0---0---0---------|
4|---------------------------------------------------|
5|---------------------------------------------------|
6|-0--------------1--------------3-------------------| X2 (todo)


C                       G          Am
Recíbeme con todo lo que tu pusiste mi,

                Em        F
con todas esas ganas de vivir,

               G
con toda mi miseria

        C         G                Am            Em
Recibeeeemeeeeeee...... reecibeeeeemmeeeeeeeeee......
         F             G                  C
reeecibemeeeeeeeeeeeee.... reeeeciiibeeeeemeeeeeeeee...