Intro:

-5-----7-----9------4-----5-----7---2----4-----5---2---0---0--0--12--
----0-----0-------------0-----0---------0-----0-------------0---0----
---------------------------------------------------------------------
---------------------------------------------------------------------
-0---------------0---------------------2---------------2-------------
---------------------0----------------------------------------0------


-5-----7-----9------4-----5-----7---2----4-----5---2---0---0--0-------
----0-----0-------------0-----0---------0-----0-------------0---0-----
----------------------------------------------------------------------
----------------------------------------------------------------------
-0---------------0---------------------2---------------2--------------
---------------------0----------------------------------------0-------


E				        B
Señor el día muere, nuestro sol desciende ya
E	          A         E       B     E
A ti suben los sueños, de mi corazón
A	E	B	        E
Un día feliz, me llenaras de eternidad
A	  E	           B	                  E
Un día Señor, me esconderás en tu corazón

Oigo cantar a los hombres, ya sudosos su dolor
Quiero escuchar alli Señor el eco de tu voz
Un día feliz, me llenaras de eternidad
Un día Señor, me esconderás en tu corazón

Intro

Un día feliz, me llenaras de eternidad
Un día Señor, me esconderás en tu corazón

Final: Intro