La introducción original de este canto es con teclado(cuerdas) y esta en 'D'
pero yo la transporte a 'C' para sacar la tablatura de guitarra,
pueden tocar todo el canto con arpegio y les va a encantar.

Esta en un compás de 4/4 y cada separacion vertical es linea divisoria de compás.
Estos son los valores de las letras que estan encima del cifrado:
e:corchea (1/2 tiempo)  q:negra(1 tiempo)  h:blanca(2 tiempos)
En las letras que tienen el signo '+' se suman los 2 valores de tiempo. 

        C             Em    
|   e   e h+e  e  e  q+e e q+e e 
E ----|------------|-----0-------|
B ----|-3--1-------|--3-----1--0-|
G --0-|-----------0|-------------|
D ----|------------|-------------|
A ----|-3----------|--2----------|
E ----|------------|-------------|


 Am                F     Dm      G7        C
  e q+e q  e  e    q  q  q  q   h+q e  e   e h+e  e  e
--------------0-|--1--0-------|----------|-------------|
--3--1-----3----|--------3--0-|--3-------|-3--1--------|
----------------|-------------|--------0-|-----------0-|
----------------|--3-----0----|----------|-------------|
--0-------------|-------------|----------|-3-----------|
----------------|-------------|--3-------|-------------|

  Em            Am               F     Dm      G7                    
 q+e e q+e e    e q+e q  e  e    q  q  q  q   h+q q
-----0-------|--------------0-|--1--0-------|--------|
--3-----1--0-|--3--1-----3----|--------3--0-|--3-----|
-------------|----------------|-------------|--------|
-------------|----------------|--3-----0----|--------|
--2----------|--0-------------|-------------|--------|
-------------|----------------|-------------|--3-----|

  C            G
Venimos a entregarte
         Am
nuestras vidas,
      Em
y con ello
        F
lo que somos
    G      G7
por tu bondad.

  C           G
Venimos a ofrecerte
el fruto
Am            Em
de nuestro trabajo,
       F    G7
?oh! Señor,
       C   Em 
recíbelo.

   Am          Em
El fruto de la tierra,
    F    G      C      Em
el fruto de la vid,
     Am             Em
transformalos en tu cuerpo
         F
y en tu sangre,
        G  G7
?oh! Señor.

   Am          Em
El fruto de la tierra,
    F    G      C      Em
el fruto de la vid,
     Am             Em
transformalos en tu cuerpo
         F
y en tu sangre,
        G  G7
?oh! Señor.

  C            G
Venimos a entregarte
         Am
nuestras vidas,
      Em
y con ello
        F     G7
lo que somos
       C
recíbelo.

Para el final se vuelve a ejecutar la tablatura tocando la nota 'sol'
justo en la silaba 'be' de 'recíbelo' y se termina en 'C Mayor'.