Introducion

e|--------0----------------1---------------2---------------------|
B|----------0----------------2---------------4-------------------|
G|-----1------1---------2------2--------4------4-----------------|
D|---2----------------2--------------4---------------------------|
A|------------------0--------------2-----------------------------|
E|-0-------------------------------------------------------------| tres veces

                                     tambien puede ser asi


e|-------0---------------0--------------2------------------| tres veces  e|-0-|
B|-----0---0-----------2---2----------4---4-----2-4-5-4----|             B|-0-|
G|---1-------1-------2-------2------4-------4---4-4-4-4----|     y       G|-1-|
D|-----------------2--------------4------------------------|             D|-2-|
A|---------------------------------------------------------|  despues    A|-2-|
E|-0-------------------------------------------------------|             E|-0-|



MI            LA       SI  SI?
Conversando con dos angeles
MI           LA       SI   SI?
que del cielo descendieron
MI           LA       SI   SI?
con curiosidad les pregunte
MI           LA       SI   SI?
si conmigo siempre estaban.


C#m                     SI SI?
Respondieron casi siempre si
LA                    SI   SI?
solo un momento te dejamos
C#m                   SI   SI?
y preocupado yo pensaba asi
LA                         SI  SI?
es cuando entra el pecado en mi.


MI           LA          SI  SI?
Los dos me vieron a los ojos
MI           LA          SI  SI?
respondieron diciendo que no
MI          LA       SI  SI?
y dibujando una sonrisa
MI         LA        SI  SI?
revelaron a mi corazon


C#m                       SI  SI?
Al recibir a Cristo eucaristia
LA                            SI  SI?
quedan envueltos en su luz divina
C#m               SI       LA
y alrededor de ustedes nos quedamos
             SI         SI?
todos los angeles cantaaaaaando



MI    LA   SI   C#m  SI     LA   SI
Glooooooooria,       Glooooooooria,   

MI    LA   SI   C#m  SI     LA   SI
Glooooooooria,       Glooooooooria,   




  SI?
e|-2-|
B|-2-|
G|-4-|
D|-4-|
A|-2-|
E|-2-|