Introducción:

      D    E       A        D      E     A
1|-0h-2-2h-4-4-7-4-5-4-|-0h-2-7/-5-4-2-|-2-0-----------------------|
2|---------------------|---------------|-----3-2-0-----------------|
3|---------------------|---------------|-----------2-1------2h-4-2-|
4|---------------------|---------------|---------------4-2-4-------|

 A    E     A
Dios esta aquí
     D                   E      A   A7
Tan cierto como el aire que respiro
     D               E         A  F#m
Tan cierto como la mañana se levanta
     D                  E                 A
Tan cierto como que te hablo y me puedes oír.


Intermedio:

   A          E         A   A7      D           E     A  A7
1|------------------------5-4-2-0-|-2-2-2-2-2-2-0------|
2|-2-0h-2h-3h-5-2h-3h-5-5---------|---------------3-2-5|
3|--------------------------------|--------------------|

     D           E       A   F#m
1|---2-2-2-2-2-2-0-2-0---------|
2|---------------------3-2-0---|
3|-2-------------------------2-|

     D           E           A
1|-------------0---------------|
2|---3-3-3-3-3---2-0-0-0-------|
3|-2---------------------2-1-2-|



A    E     A
Dios esta aquí
     D                   E      A   A7
Tan cierto como el aire que respiro
     D               E         A  F#m
Tan cierto como la mañana se levanta
     D                  E                 A
Tan cierto como que te hablo y me puedes oír. (2)
      D                  E                 A
Tan cierto como que te hablo y me puedes oír.


Fin:

A  E  A.