Nota:(si-) es (Si menor), Asi pongo los menores
kon el simbolo de menos ( - )
intro: La mi FA#- mi re Si- mi


          La    mi
PORQUE TE CALLAS
       fa#-       mi
PORQUE ESTAS TRISTE
            re     
PORQUE NO ME HABLAS
        si-           mi
Y ME CUENTAS TU INQUIETUD

         La    mi
PORQUE ME HUYES
          fa#-    mi  
SE LO QUE HICISTE
           re
NADA EN EL MUNDO
       si-           mi
ME INTERESA MAS QUE TU
 
           Fa#-        mi
SE QUE TE DUELE EL CORAZ??N
            Fa#-        mi
Y SE QUE NO HALLAS LA RAZ??N
           re          si-      mi
ES QUE TE SIENTES APARTADO DE MI MANO
 
      La mi  Fa#- mi 
TE CONOZCO HIJO MǍO
      re          si-
TE CONOZCO Y NADA TIENES
          mi              
QUE ESCONDER DE MI

     La mi   Fa#- mi 
TE CONOZCO HIJO MǍO
       re              si-    
YO TE HICE ENTRE MIS MANOS
      mi     
Y EL AMOR TE DI
         re/La
PORQUE TE AMO
 
(Solo) 

E ---------------------------------------------
a ---------------------------------------------
d ------------------~--------~--~----~-----~---
g --------------------------6-------------------
b ---------------------------------------------
e ---0--9--7--0--0--9--8-----------------------

E ---------------------------------------------
a ---------------------------------------------
d ------------------~--------~--~----~-----~---
g ---------------------------------------------
b ---------------7----10-10-10/12 12-----------
e ---0--9--7--9--------------------------------