DISCIPULO

A|---------------2--2--2--2-7-7-|
E|3--3----3--3------------------|
 SI YO ESTUVE AHǍ AQUEL MOMENTO

A|------------3---3--3--3---3--3--3--3----5--|   
 EN QUE EL SALVABA AL MUNDO, EN AQUELLA CRUZ

A|-----------------2--2--2--2-2---7-7-|
E|3--3----3--3---3--------------------|
 OH SI, YO ESTUVE AHǍ EN AQUEL MOMENTO
    
A|-------3---3--3--3---3--3---5-5--|
 EN QUE AUN A SUS ENEMIGOS PERDONO

A|-----------------2--2--2--2-2---7-7-|
E|3--3----3--3---3--------------------|
 OH SI, YO ESTUVE AHǍ YO SOY TESTIGO
    
A|------3---3--3--3---3--3--3--3----5--|    
 SOY TESTIGO DE LO GRANDE DE SU AMOR
   
A|-----7----7--7--3-3-|
 CUANDO SOLO SE QUED??
   
A|---------3----3--3---3---0-5-|
 COMO UN CORDERO SE ENTREG??
      
A|------------------2--2---2---7-7--7|
E|--------3-3--3--3------------------|
 YO NO ME APARTE DE EL NI UN SEGUNDO
         
A|-----3---3--3--3---3--3--3--3--3--5--|
 YO QUERǍA VERLO Y QUE EL ME VIERA AHǍ
      
A|------------------------2--2---2---2--7-7--7|
E|--------3-3--3--3---3--3--------------------|
 Y FUE ENTONCES CUANDO EN MǍ FIJO SUS OJOS
    
A|-------3---3--3--3--3-5--5-|
 CON LǁGRIMAS LLORANDO DIJO

A|7-7---7--7---7---7-5-5-5-|
 HIJO TE LA DOY POR MADRE
 
A|---------------------5-3-3-|
E|---3---3---3-3-3---3-------|
 ǁMALA, Y CUǍDALA POR MǍ
 

A|-----------------2--2--2-2-7--7-7-|
E|---------3--3---------------------|       
 Y SUS OJOS ME MIRABAN SUPLICANTES

A|--------3---3--3--3---3--3--3--3----5--|            
 AL ENTREGARME AQUELLO MǁS BELLO PARA ??L

A|7-7---7--7---7---7-5-5-5-|
 CUǍDALA POR MǍ DISCǍPULO,

A|---------------------5-3-3-|
E|---3---3---3-3-3---3-------| 
 ǁMALA, PUES TU MADRE ES

A|--------2--2--2--2--7-7--7-|
E|3---3--3-------------------|
 SI YO SOY AQUEL DISCǍPULO
   
A|---3-3--3-3--3--5--5-|
 Y ELLA ELLA MI MADRE
     
A|-------3--5--5-5--5------|
E|---------------------3-3-|
 LA RECIBǍ, FELIZ VIVǍ
     
A|-------3--5--5-5------3-5-5--5-|
E|------------------3-3----------|
 RECǍBELA, TU MADRE ES, DISCǍPULO